JapanForum.com

JapanForum.com (http://www.japanforum.com/forum/)
-   Japanese Music (http://www.japanforum.com/forum/japanese-music/)
-   -   Jrock Guitar/Bass tabs (http://www.japanforum.com/forum/japanese-music/16788-jrock-guitar-bass-tabs.html)

LittleFallenAngel 06-28-2008 07:29 PM

Jrock Guitar/Bass tabs
 
Hello members of JF.^^
I was wondering, since there aren't many Guitar/Bass tabs from jrock songs,
How about making this thread?
I got permission of Nan to make it ((Nanny I wuvvles you nows O_O;;...))
So ummm, just start to post a link ot something if you got them.
But,
Also say: If you need Guitarpro for it, or if its like just a yeah blank tab.
If its a blank tab.
Just post it here.
Or put it in a word/notebook file and upload it to mediafire.
Also, I made this thread since there are some guitarists/ bassists among us.
So yush^^.
Happy posting I guess^^.

Note: keep this thread spamm free.
Or it will get deleted.

VisualKei 07-09-2008 06:47 PM

Helloooo~
Great idea for a thread, by the way.
I'm an amaetur guitarist (REALLY amaetur...) and I was wondering if anyone had the guitar tabs for the song "Honey Vanity" by Közi? I'd love it if they could post/PM them to me ^.^

JoshAussie 07-10-2008 01:56 AM

if anyone has got any Danger Gang tabs or knows where to get them.. plz tell me :)

i had a look for some but couldnt find anything ><

Touya 07-10-2008 02:02 AM

I have a tabliture link that I am learning to play my guitar from. I'll share:
Anime/JPop/Jrock Tabs

SuGrocks 07-10-2008 08:32 PM

um, anyone have the intro to the Gazette's 'Cassis'? for guitar...i really want that...anyway, plz and thank you.

LittleFallenAngel 07-10-2008 08:45 PM

Quote:

Originally Posted by SuGrocks (Post 533116)
um, anyone have the intro to the Gazette's 'Cassis'? for guitar...i really want that...anyway, plz and thank you.

You mean the part Aoi is playing?=o
I could try to like tab that one for you x]
Could take some time, because I won't be tomorrow online..

Hackimoto 07-15-2008 08:10 PM

This site has some pretty good tabs

Guitar Tabs, Guitar Chords and Lyrics - Chordie

Jo_Kittie 07-18-2008 07:18 PM

Quote:

Originally Posted by SuGrocks (Post 533116)
um, anyone have the intro to the Gazette's 'Cassis'? for guitar...i really want that...anyway, plz and thank you.

Lemme try this, lulz.

e|----2---0---2---2---0---2-------2----------------------------------|
B|------0---------------0-----2-----2-----------------3-2------------|
G|----------2-------------------2-----2-------2---2------------------|
D|--------------0---0-------2-----------2-0-4---4---4----------------|
A|--2----------------------------------------------------------------|
E|-------------------------------------------------------------------|

e|----2---0---2---2---0---2-------2----------------------------------|
B|------0---------------0-----2-----2--------------------------------|
G|----------2-------------------2-----2------------------------------|
D|--------------0---0-------2-----------2----------------------------|
A|--2-------------------------------------0--------------------------|
E|-------------------------------------------------------------------|

naturesbless 07-25-2008 10:30 PM

Anyone have the tabs for "God Knows" or "Lost my Music" from Suzumiya Haruhi no Yuutsu? Just PM them to me or just post a link here... thanks! :)

signify 08-12-2008 12:06 AM

tabs
 
check this out XXX SOUND

this site is in japanese, but is easy to find the artist you want, it have few tabs, but lots of songs with the chords!

Enjoy!


All times are GMT. The time now is 05:53 PM.

Search Engine Friendly URLs by vBSEO 3.0.0 RC6